http://www.sepertiga.com/


http://www.grosironline.web.id/

Chord Killing me inside Biarlah [tab]

Kunci Chord Gitar Disini Tempatnya chord lagu indonesia Lirik LAGU Musik terbaru disertai Dengan Kunci LAGU dan Kumpulan kunci Gitar juga Kord gitar Baik Musik Luar Barat Korea K-pop Manca negara atau lagu Indonesia 

Killing me inside Biarlah [tab]

Intro tabs

e-------10~-----10s12-10~--
B--12h13-----12h13-------------
G----------------------------
D-----------------------------
A----------------------------
E-----------------------------

e---------------------------
B-13-13-12----15-15-14-------
G--------12~--------14~----
D---------------------------
A--------------------------
E---------------------------

Intro
Bm f#m G A
Bm f#m G A

Bm         F#m
Semua yang berlalu
G
tlah menjadi kenanga n
Bm      F#m
dan seakan kulupakan
G
karena ku tak sejalan

Intro bm f#m g

Bm                  F#m 
Dan tak mungkin ku bertahan
G
meski telah ku cob a
Bm            F#m
semuanya tak berguna
G
terbuang sia sia…
[chorus ]
D  A  Bm
Dirimu di hatiku
G A
sudah terlalu lam a
D A bm
Biarlah Ku moncoba
G A
Untuk tinggalkan semu a

Intro bm f#m g
Bm
Dan tak mungkin
F#m
ku bertahan
G
meski telah ku cob a
Bm       F#m
semuanya tak berguna
G A
terbuang sia-sia

D    A   Bm
Dirimu di hatiku
G A
sudah terlalu lam a
D.   A   Bm
Biarlah Ku moncoba
G A
Untuk tinggalkan semu a
 Intro

G  A  B
G  A  Bb C

D   A    Bm
Dirimu di hatiku
G   A
sudah terlalu lam a
D   A  Bm
Biarlah Ku moncoba
G    A
Untuk tinggalkan semu a

F C  Dm
Dirimu di hatiku
Bb C
sudah terlalu lam a
F C Dm
Biarlah Ku moncoba
Bb C
Untuk tinggalkan semua

Intro :
Dm Am Bb
Dm Am Bb C D~

e-------13~-----13s15-13~--
B--15h16-----15h16-------------
G----------------------------
D-----------------------------
A----------------------------
E-----------------------------

e-------------13-13----------
B-16-16-15-----------17-------
G--------15~---------17~----
D---------------------------
A---------------------------
E---------------------------



 

Blog For kunci chord gitar Blog untuk Belajar kunci lagu chord Gitar 2013 | Pasang Iklan MURAH

All Chords and lyrics are the author's own work and represents their interpretation of the song | privacy-policy