Bass Tab Guns N' Roses Sweet Child O' Mine

Kunci Chord Gitar Bass Tab Guns N' Roses Sweet Child O' Mine Disini Tempatnya chord lagu juga belajar musik dan alat musik berikut ini adalah lagu yang terkenal dan biasanya di pake untuk belajar oleh band band baru dimana sering memainkan Bass Tab Guns N' Roses Sweet Child O' Mine di blog ini terdapat juga indonesia Lirik LAGU Musik terbaru disertai Dengan Kunci LAGU dan Kumpulan kunci Gitar juga Kord gitar Baik Musik Luar Barat Korea K-pop Manca negara atau lagu Indonesia terima kasih semoga berkenan dan menghibur sukses untuk Band nya.?


|------11-(11)----11-12-|-14-p16-14p12-11-----|------12-(12)-------||-10-9----10-(10)-9----9-|
|-12-----------12-------|-----------------12--|-10-------------10--||------10-----------10---|
|-----------------------|---------------------|--------------------||------------------------|
|-----------------------|---------------------|--------------------||------------------------|


|--------------------|-12------(12)-------|-12-11----12-(12)-11-----|--------------|
|-------------h11-12-|-------------h11-12-|-------12------------12--|-(12)----12\--|
|-10------(10)-------|--------------------|-------------------------|--------------|
|--------------------|--------------------|-------------------------|--------------|


|-------------|---------------|-------------|---------------|-------------|
|-------------|-------4-5-4---|-------------|-------3-2---2-|-------------|
|-5---5-5---5-|-5---5-------5-|-3---3-3---3-|-3---3-----3---|-------------|
|-------------|---------------|-------------|---------------|-3---3-3--3--|


|-----------------|-------------|---------------||-------------|---------------|
|---------5-------|-------------|-4-7-4---5--4--||-------------|---------------|
|-----2-3---3-2-3-|-5---5-5---5-|-------5-------||-5---5-5---5-|-5---5-5--5-0--|
|-3-0-------------|-------------|---------------||-------------|---------------|
                                                  shes got a smile

|-------------|--------------|-------------|-----------------|-------------|
|-------------|--------------|-------------|---------5-(5)---|-------------|
|-3---3-3---3-|-3---3-3--2-0-|-------------|-----------------|-5---5-5--5--|
|-------------|--------------|-3---3-3---3-|-3---3-3-------3-|-------------|


|---7-----------|-------------|--------------|------------|----------------------|
|-----5---5--4--|-------------|--------------|------------|----------------------|
|-5-----5-------|-5---5-5---5-|-5---5-5--5-0-|-3---3-3--3-|-3--------------------|
|---------------|-------------|--------------|------------|---0-(0)-1-(1)-0-2-0--|
                 now and then


|-------------|----------------|-----------6-|-7-7-7-7-7-------||-----------------|
|-------------|----------------|-------------|-----------------||o----------------|
|-------------|------2-3-2---0-|-5---5-5-----|-----------5-7-5-||o-0--0-(0)--0-2--|
|-3---3-3---3-|-3--3-------3---|-------------|-----------------||-----------------|


                 1.                              2.
|----------------|-------------|------------------||----------6--|
|----------------|-------------|---5-4---7-5-4---o||-------------|
|-3---3-(3)--3-0-|-5---5-5---5-|-5-----5-------5-o||-5---5-5-----|
|----------------|-------------|------------------||-------------|
            sweet child o`mine


|-7-7-7-7-7------|-------------|---------7-(7)---|------------|---5-(5)-----5-(5)----|
|----------------|-------------|-----------------|------------|----------------------|
|-----------5-7\-|-5---5-5---5-|-5---5-5-------5-|-3---3-3--3-|-3-------3-3-------3--|
|----------------|-------------|-----------------|------------|----------------------|
                  1st Solo

|-------------|-----------------|-------------|---7-----------|-------------|
|-------------|-----------------|-------------|-----5---5--4--|-------------|
|-------------|---3-2---3---2-3-|-5---5-5---5-|-5-----5-------|-5---5-5--5--|
|-3---3-3---3-|-3-----3---3-----|-------------|---------------|-------------|
                                                               shes got eyes

|-------------|-------------|---------------|-------------|--------------|
|-------------|-------------|-------5-3-2-0-|-------------|--------------|
|-5---5-5--0--|-3---3-3---3-|-3---3---------|-------------|---------2-3--|
|-------------|-------------|---------------|-3---3-3---3-|-3--3-3-------|


|-------------|---7-(7)---7--7--|-------------|-------------|-------------|
|-------------|-----------------|-------------|-------------|-------------|
|-5---5-5---5-|-5-------5-------|-5---5-5---5-|-5---5-5--0--|-3---3-3--3--|
|-------------|-----------------|-------------|-------------|-------------|
                                 Her hair

|---------------------|-------------|-----------------|----------/6-|-7-7-7-7-7--------|
|---------------------|-------------|---------5-------|-------------|------------------|
|-3-------------------|-------------|-----3-2---3-2-3-|-5---5-5-----|-----------5-7-5--|
|---0-(0)-1-(1)-0-2-0-|-3---3-3---3-|-3-0-------------|-------------|------------------|


                                                   1.              2.
||----------------|------------------|-------------|---------7------||-7-7-7-7-7--------|
||o---------------|------------------|-------------|-----------7---o||------------------|
||o-0---0-(0)--2--|-3--(3)-3-(3)--3--|-5---5-5---5-|-5---5-5-----5-o||-----------5-7-5--|
||----------------|------------------|-------------|----------------||------------------|


|------------|--------------|-------------|-----------------|--------------|
|------------|--------------|-------------|-----------------|--------------|
|-5---5-5--5-|-5---5-5--5-0-|-3---3-3---3-|-3-----2-3-3-2-0-|--------------|
|------------|--------------|-------------|---0-3-----------|-3---3-3---3--|
 2nd Solo

|-----------------|-------------|---7-----------|-------------|-------7------|
|---------7-------|-------------|-----5---5--4--|-------------|--------------|
|-----2-3---3-2-3-|-5---5-5---5-|-5-----5-------|-5---5-5---5-|-5---5---5-0--|
|-3-0-------------|-------------|---------------|-------------|--------------|


|-------------|---------------|-------------|-----------------|--------------|
|-------------|---------------|-------------|---------5-------|--------------|
|-3---3-3---3-|-3---3-3-3-2-0-|-------------|-----3-5---3-2-3-|-5---5-5---5--|
|-------------|---------------|-3---3-3---3-|-3-0-------------|--------------|


                                                                     1.
|---7-7-7-7-7-7----||-----------------|----------------|-------------|-------------------||
|------------------||o----------------|----------------|-------------|---7-7-7-7-5-4----o||
|-5-------------7\-||o-0---0-(0)--0-2-|-3---3-(3)--3-0-|-5---5-5---5-|-5-------------5--o||
|------------------||-----------------|----------------|-------------|-------------------||


  2.                                                               1.
|-----------------||----------------|----------------|-------------|---7-7-7-7-7-7------||
|-----------------||o---------------|----------------|-------------|-------------------o||
|-5---------------||o-0--0-(0)--0-2-|-3---3-(3)--3-0-|-5---5-5---5-|-5-------------5\--o||
|---0-2-0-3-0-2-0-||----------------|----------------|-------------|--------------------||


  2.                                                               1. , 2. , 3.
|-----------------|----------------||---------------|-----5-(5)----|-----4-(4)--|
|-----------------|----------------||o-----2-(2)----|--------------|------------|
|-5-5-5-5-5-5-5-5-|-5-5-5-5-5-0-7\-||o--------------|-3------------|-2----------|
|-----------------|----------------||--0------------|--------------|------------|
                                       Main Solo disini

                  4.
|-----2-(2)--------||-------------------|------------------|
|-----------------o||---------------(2)\|-/7-7-7-7-7-5-4---|
|-0---------0-----o||-0-0-0-0-0-0-0-----|----------------7\|
|-------------3-2--||-------------------|------------------|


||------------------|-----------------|-----2-(2)-------|----------------||
||o-----2-(2)-------|----5-(5)--------|-----------------|---------------o||
||o-----------------|-----------------|-0---------0-2-0-|-3-3-3-3-5-----o||
||--0---------0-2-0-|-3--------0-3-0--|-----------------|------------3---||


||----------------|--------------|-----2-(2)--|--------------||
||o-----2-(2)-----|-----5-(5)----|------------|-------------o||
||o---------------|--------------|-0----------|--3-3--5-----o||
||--0-----------0-|-3------------|------------|----------3---||
   where do we go

                                                        1. , 2. , 3.
||------------------|-----------------|-----2-(2)-------|----------------||
||o-----2-(2)-------|-----5-(5)-------|-----------------|---------------o||
||o-----------------|-----------------|-0---------0-2-0-|-3-3-3-3-5-----o||
||--0---------0-2-0-|-3---------0-3-0-|-----------------|------------3---||


  4.
|-----2--(2)----|------------------|--------------------|---------------------|
|---------------|-2--0-------------|-----2-(2)----------|-----5--(5)----------|
|-0-------------|-------2--1--0----|--------------------|---------------------|
|---------------|----------------3-|-0----------0--2--0-|-3-----------0--3--0-|

|----------|----------|-----*|
|----------|----------|-----*|
|-0--------|-3----5---|-----*|
|----------|----------|--0--*|



 

Blog For kunci chord gitar Blog untuk Belajar kunci lagu chord Gitar 2013 | Pasang Iklan MURAH

All Chords and lyrics are the author's own work and represents their interpretation of the song | privacy-policy